Sit Down

CHORDS (E, A, B)

INTRO...

E--------0--0-----------0-------------0-------------------------------------------0-0
B--------0--0-----12-10-9-------------0----12-12-12=11-12-12=11-12-12=11-12-12=11-9-9
G--------9--9-----13-11-9--11-4-------9----13-13-13=12-13-13=12-13-13=12-13-13=12-9-9
D--------9--9-----------------4-------9----------------------------------------------
A--------7--7-----------------2-------7----------------------------------------------
E-----0-----------------------------0------------------------------------------------

LEAD PART AFTER CHORUS 1

E---0--0--0--0--0--------------------------------------
B---12-12-12-12=11------9------9-10-12-12-12-12-10-9---
G---13-13-13-13=12--9-11-11-9--9--9--9--9--9--9--9-9-11
D-----------------------------------------------------9
A------------------------------------------------------
E------------------------------------------------------

E----------------------------------------12-------12-------12-12-12-14-12-14-16
B---9-10-12-9-10-12-9-10-12-9-10-12-12---12-12-12-14-12-12-12-12-------------17
G---9--9--9-9--9--9-9--9--9-9--9--9--9-----------------------------------------
D------------------------------------------------------------------------------
A------------------------------------------------------------------------------
E------------------------------------------------------------------------------

THAT'S IT!


Submitted by:
Tom Kirkham -- mugwump@easynet.co.uk