She's A Star

She's a star verse and chorus chords - G, G with F#bass note, C, D

Saul plays the first two chords then for C...

E-----------------2--0---
B------------------3--3-3
G-------------------2--2-
D---------------0--------
A---3--5-3-2-0-----------
E------------------------

The opening lead part and ending Adrian plays...

E----------------------------------------------------
B-3-slide-to-15--17-slide-to-12---13-12-10-8---5-5--3
G----------------------------------------------------
D----------------------------------------------------
A----------------------------------------------------
E----------------------------------------------------

E-----------------------------------------------------
B-3-slide-to-15--17-slide-to-12---13-12-10-8---10-----
G-----------------------------------------------------
D-----------------------------------------------------
A-----------------------------------------------------
E-----------------------------------------------------

Bridge ("oh no, she knows where to hide...") Chords - Am, C, D, C...
                                                      Am, C, D
E--------------------------------------------------------------------
B--------------------------------------------------------------------
G---2---5----7----10-10-7----2----5----7-7-7-7-9-9-9-9-11-11-11-11-12
D--------------------------------------------------------------------
A--------------------------------------------------------------------
E--------------------------------------------------------------------

Chorus Lead part

E----------------------------------------
B-3-slide-to-12---10-12---10-12-10-8---10           X2
G----------------------------------------
D----------------------------------------
A----------------------------------------
E----------------------------------------

Then the other bit ("don't tell her...")
Saul plays this lead part while Adrian plays the chords- Em, A, C, D X2

E---------------------------------------------------
B-0--3-5-5-5-3-0------------------------------------
G----------------2-2-0-2-2-0-2--5-5-5-4-5-7-7-7-7-7-
D---------------------------------------------------
A---------------------------------------------------
E---------------------------------------------------

E-----------------------------------------------------------------
B-0--3-5-5-5-3-0-----------------------------------------7-7-7-7-8
G----------------2-2-0-2-2-0-2--5-5-5-4-5-7-7-7-7-9-9-9-9---------
D-----------------------------------------------------------------
A-----------------------------------------------------------------
E-----------------------------------------------------------------

So there we go.


Submitted by:
Tom Kirkham -- mugwump@easynet.co.uk