Lullaby

2 guitars play one doing the riff and the other doing backing chords.
IMPORTANT       3/4 timing!!!!!!!!        


  VERSES (main riff)           (the chords are being played with that shit)        

       D             Bm         A/C#        D                 Bm        
E-----------------|-------------------|--------------------|------------
B-----------------|-------------------|--------------------|------------
G-----------------|-------------------|-----------0--------|------------
D------4p5--4-----|-----0-------2-----|-----4--------4-----|-----0------
A---5----------5--|--2-----2/4-----4--|--5-----5--------5--|--2---------
E-----------------|-------------------|--------------------|------------
                                                                        

         A/C#             Break (piano arranged 4 guitar)               
E---------------||-----------5-----3-----2------------||-----------|----
B---------------||--------------------------------5---||--5--------|----
G--------------*||-----------------------------------*||-----------|----
D--------2-----*||-----------------------------------*||-----------|----
A---2/4-----4---||------------------------------------||-----------|----
E---------------||------------------------------------||-----------|----
                                                                   
                       play slowly                                                  
E---------------|-----5--7--5--3--||------------------------------------
B---------5-----|-----7--8--7--5--||------------------------------------
G---------------|-----------------||------------------------------------
D---------------|-----------------||------------------------------------
A---------------|-----------------||------------------------------------
E---------------|-----------------||------------------------------------

         SOMEWHERE IN THE SONG IT STARTS PLAYING THESE CHORDS: 

G A Bm G D A G A


You can either play them bar or open dosent really matter

Bm = x24432
A/C#=x4222x
                                               

Lullaby

(main riff)
Since your mother cast her spell
Every kiss has left a bruise
You've been raiding too much meaning from existence

(other chords G   A Bm G  D   A    G   A)
Now your head is used and sore
And the forecast is for more
Memories falling, like falling rain
Falling rain 

(then back to main riff)

Every view they hold on you's
A piano, out of tune
You're an angel
You're a demon
You're just human

(other chords G   A Bm G  D   A    G   A)
Now your world has turned to trash
Broken windows on the past
Take that child and teach him senseless
(then back to main riff)
Damage the dream, damage the dream
I feel nothing, I feel nothing at all
I feel nothing at all 

(then break to piano)

(back to main riff)
In this gloomy, haunted place
All the feelings are of shame
All the windows have been broken by the children

(other chords G   A Bm G  D   A    G   A)
So the wind screams up the stairs
Slams the doors and rattles chairs
I wish we weren't conceived in violence
(then back to main riff)
Damage the dream, damage the dream
(other chords G   A Bm G  D   A    G   A)
The magic is broken
The house is in ruins
Your memory's one-sided
The side that you're choosing feels nothing
Feels nothing at all
We feel nothing at all 
                         



========================================================================
== Any corrections e-mail the james at thejames@dazedandconfused.com  ==
==               You can also visit his homepage at                    ==
==          http://www.geocities.com/Athens/Olympus/3448/             ==
==            This tab was created for the James Tab sight            ==
========================================================================


Submitted by:
windsor -- windzor@idirect.com>