Lost A Friend

This is one of my personal favourite James tunes, and I'm
quite sure I've got it right, 'cause it isn't too complicated:

C                Em                        C                Em
    My TV's staring at me it says go to sleep, go to sleep
C                       Em                        C                   Em
Turns me into a siamese twin where do I start the TV screen begins
C                            Em                C                  Em
Plugs me into some holy geek, his point in life is incomplete
C               Em                C                      Em
    My TV's telling me that only money will make me happy

C                                   Em    Am    F            
Hold the course and then sail...                         
C                                   Em    Am    F
Hold the course and then sail...

(Bring in distortion, and alter strum pattern to something more hardcore).
C                                        Em
Across the satellite beams, across the oceans and seas
Am                                F
To the lighthouse I could be
C                                           Em
I see some soldiers with guns, and they are killing for fun
Am                                         F
And they are killing to entertain me...
(etc.)

(I have the lead riff for the bridge tabbed out somewhere, but I can't 
find it right now. If anyone is really interested, I'll submit it later).

Bass:

Verse:
G--------------------------------------------------------------
D-----------5-3---2--2---3-5-----------5-3---2--2---3-5--
A---3--3-------------------------3--3------------------------
E--------------------------------------------------------------
Repeat throughout verses.

Chorus:
G--------------------------------------------------------------
D--------------------7--7----3--3----------------------------
A---3--3----7--7---------------------------------------------
E--------------------------------------------------------------
Repeat throughout chorus.


Submitted by:
Jacob Earl -- jearl@shl.com