I Know What I'm Here For

Basic chords throughout are A, E, G, D, which are played by all guitars
in the chorus.

Taken from the TFI Friday performance, Saul plays the following
variations on the basic chords during the verse:

    A      E       G       D
E---9------7------10------10
B--10------9------12------10
G---9------9------12------11
D-------------------------12
A---------------------------
E---------------------------

Whilst Adrian plays these variations:

    A      E      G      D
E---5------4------5------5
B---5------5------8------7
G---6------4------7------7
D---7------6------5------5
A-------------------------
E-------------------------

As for the solo. Some sort of weird effect is used, but the chords played
using it are:

E---9-----12-----10-----10------17-----12-----10-----10
B--10------9------8------7------17------9------8------7
G---9------9------7------7------18------9------7------7
D-------------------------------19---------------------
A------------------------------------------------------
E------------------------------------------------------

And... if you want to play along to the keyboard riff:

E---------------------------------------------------------------------
B------8-10--10-8------8-10--10-8------8-10--10-8---------------------
G---7-9----------9--7-9----------9--7-9----------9--7-7-9-7--7-7-9-7-9
D---------------------------------------------------------------------
A---------------------------------------------------------------------
E---------------------------------------------------------------------

I think that's pretty much it.


Submitted by:
Tom Kirkham -- mugwump@easynet.co.uk